Blur - Crazy Beat (var.10) Guitar tab download free or play online

Guitar tab for Crazy Beat (var.10) by Blur free download and read or play online: file .txt, 2.14 kb has 225 views and 0 downloads.

Download guitar tab "Crazy Beat (var.10)" (Blur)

Blur Band name
Crazy Beat Song name
Guitar tabs Tab type
2.14 kb File size
.TXT File type
225 views
0 downloads
 
Are you robot?

Crazy Beat (var.10) guitar tab read and play online

                    Aurthor-Blur 
Song title-Crazy beat 
Album-Think tank
Tuning -regular
Tabber-pako

--6-6-5-5-4-3-3-3-3-------------------	
--8-8-7-7-6-5-5-5-5-------------------
--8-8-7-7-6-5-5-5-5-------------------
--------------------------------------
--------------------------------------
--------------------------------------      x 3


--1-1-1-1-1---------------------------
--3-3-3-3-3---------------------------
--3-3-3-3-3---------------------------
--------------------------------------
--------------------------------------
--------------------------------------



--6-6-5-5-4-3-3-3-3-------------------	
--8-8-7-7-6-5-5-5-5-------------------
--8-8-7-7-6-5-5-5-5-------------------
--------------------------------------
--------------------------------------
--------------------------------------      x 3


--1-1-1-1-1----------------------------
--3-3-3-3-3----------------------------
--3-3-3-3-3----------------------------
---------------------------------------
---------------------------------------
---------------------------------------


--6-6-5-5-4-3-3-3-3--------------------
---------------------------------------
---------------------------------------
---------------------------------------
---------------------------------------
--------------------------------------- x 3

--6-6-5-5-4-3-3-3-3-------------------	
--8-8-7-7-6-5-5-5-5-------------------
--8-8-7-7-6-5-5-5-5-------------------
--------------------------------------
--------------------------------------
--------------------------------------      x 3


--1-1-1-1-1----------------------------
--3-3-3-3-3----------------------------
--3-3-3-3-3----------------------------
---------------------------------------
---------------------------------------
---------------------------------------


--6-6-5-5-4-3-3-3-3-------------------	
--8-8-7-7-6-5-5-5-5-------------------
--8-8-7-7-6-5-5-5-5-------------------
--------------------------------------
--------------------------------------
--------------------------------------      x 3
--------------------------------------

Visit www.directTABS.com for more free tablature!                    

Comments for guitar tab — Crazy Beat (var.10) (Blur)

Other Crazy Beat (var.10) by Blur tabs:

Last viewed Blur tabs: